Camp Motorpsycho » General

Running with Scissors - guitar tab

(4 posts)
  • Started 2 months ago by Blashyrkh
  • Latest reply from Blashyrkh

Tags:

No tags yet.

  1. Blashyrkh
    Member

    Hi,

    I'm working on a tab of Running with Scissors.
    It's probably not very accurate but I think this is "okay". If you have any suggestions or additions?


    -----------------------------------------------------------------
    Running with Scissors - Motorpsycho
    -----------------------------------------------------------------
    Tabbed by: Meuwh
    Email: --

    Tuning: Standard E

    0:00 - 0:23
    Repeat this part
    e|---------------------------------------------------------------|
    B|---------------------------------------------------------------|
    G|--------11---11------------------------------------------------|
    D|--------12---12------------------------------------------------|
    A|--------10---10------------------------------------------------|
    E|-0-0-0-----0---------------------------------------------------|

    e|---------------------------------------------------------------|
    B|---------------------------------------------------------------|
    G|--------11---11------------------------------------------------|
    D|--------11---11------------------------------------------------|
    A|--------9----9-------------------------------------------------|
    E|-0-0-0-----0---------------------------------------------------|

    0:24
    e|---------------------------------------------------------------|
    B|------------12--10------12--15--14--10--12-12------------------|
    G|-9---9/12-----------12-----------------------------------------|
    D|------------12--10------12--14--14--10--12-12------------------|
    A|-7---7/10-----------10-----------------------------------------|
    E|---------------------------------------------------------------|

    Repeat this part
    e|---------------------------------------------------------------|
    B|---------------------------------------------------------------|
    G|--------11---11------------------------------------------------|
    D|--------12---12------------------------------------------------|
    A|--------10---10------------------------------------------------|
    E|-0-0-0-----0---------------------------------------------------|

    e|---------------------------------------------------------------|
    B|---------------------------------------------------------------|
    G|--------11---11------------------------------------------------|
    D|--------11---11------------------------------------------------|
    A|--------9----9-------------------------------------------------|
    E|-0-0-0-----0---------------------------------------------------|

    0:53
    e|---------------------------------------------------------------|
    B|------------12--10------12--15--14--10--12-12------------------|
    G|-9---9/12-----------12-----------------------------------------|
    D|------------12--10------12--14--14--10--12-12------------------|
    A|-7---7/10-----------10-----------------------------------------|
    E|---------------------------------------------------------------|

    Repeat this part
    e|---------------------------------------------------------------|
    B|--------12---12------------------------------------------------|
    G|--------11---11------------------------------------------------|
    D|--------12---12------------------------------------------------|
    A|--------10---10------------------------------------------------|
    E|-0-0-0-----0---------------------------------------------------|

    e|---------------------------------------------------------------|
    B|---------------------------------------------------------------|
    G|--------11---11------------------------------------------------|
    D|--------11---11------------------------------------------------|
    A|--------9----9-------------------------------------------------|
    E|-0-0-0-----0---------------------------------------------------|

    1:22
    e|---------------------------------------------------------------|
    B|------------12--10------12--15--14--10--12-12------------------|
    G|-9---9/12-----------12-----------------------------------------|
    D|------------12--10------12--14--14--10--12-12------------------|
    A|-7---7/10-----------10-----------------------------------------|
    E|---------------------------------------------------------------|

    1:29
    e|---------------------------------------------------------------|
    B|------------12--10------12--15--14--17--19-16--15--17-14-------|
    G|-9---9/12-----------12-----------------------------------------|
    D|------------12--10------12--14--14--16--16-16--14--14-14-------|
    A|-7---7/10-----------10-----------------------------------------|
    E|---------------------------------------------------------------|

    Repeat this part
    e|---------------------------------------------------------------|
    B|--------12---12------------------------------------------------|
    G|--------11---11------------------------------------------------|
    D|--------12---12------------------------------------------------|
    A|--------10---10------------------------------------------------|
    E|-0-0-0-----0---------------------------------------------------|

    2:27
    e|---------------------------------------------------------------|
    B|------------12--10------12--15--14--10--12-12------------------|
    G|-9---9/12-----------12-----------------------------------------|
    D|------------12--10------12--14--14--10--12-12------------------|
    A|-7---7/10-----------10-----------------------------------------|
    E|---------------------------------------------------------------|

    2:35
    e|---------------------------------------------------------------|
    B|------------12--10------12--15--14--17--19-16--15--17-14-------|
    G|-9---9/12-----------12-----------------------------------------|
    D|------------12--10------12--14--14--16--16-16--14--14-14-------|
    A|-7---7/10-----------10-----------------------------------------|
    E|---------------------------------------------------------------|

    2:44
    e|---------------------------------------------------------------|
    B|-12p10-12-10--10h8-10-8----------------------------------------|
    G|---------------------------------------------------------------|
    D|---------------------------------------------------------------|
    A|---------------------------------------------------------------|
    E|---------------------------------------------------------------|

    e|---------------------------------------------------------------|
    B|---------------------------------------------------------------|
    G|-11--7--9--4---11--7--9--4-------------------------------------|
    D|---------------------------------------------------------------|
    A|-9---5--7--2---9---5--7--2-------------------------------------|
    E|---------------------------------------------------------------|

    e|---------------------------------------------------------------|
    B|---------------------------------------------------------------|
    G|---------------------------------------------------------------|
    D|---------------------------------------------------------------|
    A|---------------------------------------------------------------|
    E|---------------------------------------------------------------|

    e|---------------------------------------------------------------|
    B|---------------------------------------------------------------|
    G|---------------------------------------------------------------|
    D|---------------------------------------------------------------|
    A|---------------------------------------------------------------|
    E|---------------------------------------------------------------|

    e|---------------------------------------------------------------|
    B|---------------------------------------------------------------|
    G|---------------------------------------------------------------|
    D|---------------------------------------------------------------|
    A|---------------------------------------------------------------|
    E|---------------------------------------------------------------|

    e|---------------------------------------------------------------|
    B|---------------------------------------------------------------|
    G|---------------------------------------------------------------|
    D|---------------------------------------------------------------|
    A|---------------------------------------------------------------|
    E|---------------------------------------------------------------|

    e|---------------------------------------------------------------|
    B|---------------------------------------------------------------|
    G|---------------------------------------------------------------|
    D|---------------------------------------------------------------|
    A|---------------------------------------------------------------|
    E|---------------------------------------------------------------|

    Posted 2 months ago #
  2. Blashyrkh
    Member

    You can find the tab on Ultimate Guitar on the pending tab page:

    https://www.ultimate-guitar.com/contribution/submit/approval?id=1993749

    Posted 2 months ago #
  3. crossskip
    Member

    Last 5 bars are spot on

    Posted 2 months ago #
  4. Blashyrkh
    Member

    @crossskip, please feel free to add some stuff

    Posted 2 months ago #

RSS feed for this topic

Reply

You must log in to post.