Camp Motorpsycho » General

No Evil

(3 posts)
  • Started 5 months ago by Blashyrkh
  • Latest reply from Blashyrkh

Tags:

No tags yet.

  1. Blashyrkh
    Member

    Are there people who want to contribute on the No Evil tab?
    I already have a small part (main riff) and the structure of the song

    [+] Embed the video | Video DownloadGet the Video Player

    Sorry, for the long post.


    Artist: Motorpscho
    Song: No Evil

    e |---------------0--------------|
    B |--------0--------4-2-0--------|
    F#|---2-------3-2---------3-2-0--|
    D |-4---4------------------------| X 4
    A |------------------------------|
    E |------------------------------|

    (Drums fill in)
    e |---------------0--------------|
    B |--------0--------4-2-0--------|
    F#|---2-------3-2---------3-2-0--|
    D |-4---4------------------------| X 4
    A |------------------------------|
    E |------------------------------|

    e |-5--5-5-5-5-5-5-5-5-5-5-5--5-5-5-5-|
    B |-5--5-5-5-5-5-5-5-5-5-5-5--5-5-5-5-|
    F#|-x--x-x-x-x-x-x-x-x-x-x-x--x-x-x-x-|
    D |-4--4-4-4-4-4-4-4-4-4-4-4--4-4-4-4-|
    A |-x--x-x-x-x-x-x-x-x-x-x-x--x-x-x-x-|
    E |-3--3-3-3-3-3-3-3-3-3-3-3--3-3-3-3-|

    e |---------------0--------------|
    B |--------0--------4-2-0--------|
    F#|---2-------3-2---------3-2-0--|
    D |-4---4------------------------| X 2
    A |------------------------------|
    E |------------------------------|

    e |-5--5-5-5-5-5-5-5-5-5-5-5--5-5-5-5-|
    B |-5--5-5-5-5-5-5-5-5-5-5-5--5-5-5-5-|
    F#|-x--x-x-x-x-x-x-x-x-x-x-x--x-x-x-x-|
    D |-4--4-4-4-4-4-4-4-4-4-4-4--4-4-4-4-|
    A |-x--x-x-x-x-x-x-x-x-x-x-x--x-x-x-x-|
    E |-3--3-3-3-3-3-3-3-3-3-3-3--3-3-3-3-|

    e |---------------0--------------|
    B |--------0--------4-2-0--------|
    F#|---2-------3-2---------3-2-0--|
    D |-4---4------------------------| X 2
    A |------------------------------|
    E |------------------------------|

    [Verse]
    e |------------------------------------|
    B |------------------------------------|
    F#|---1-3-3----1-3-3----1-3-3--0-0-0-0-|
    D |-2-2-4-4--2-2-4-4--2-2-4-4--7-7-7-7-| X 2
    A |-0-2-4-4--0-2-4-4--0-2-4-4--7-7-7-7-|
    E |------------------------------------|

    e |----------------------------------------|
    B |----------------------------------------|
    F#|-----0-0------0-0------0-0--10-10-10-10-|
    D |-4-6-7-7--4-6-7-7--4-6-7-7--11-11-11-11-|
    A |-4-6-7-7--4-6-7-7--4-6-7-7--11-11-11-11-|
    E |----------------------------------------|

    e |------------------------------------|
    B |------------------------------------|
    F#|---1-3-3----1-3-3----1-3-3--0-0-0-0-|
    D |-2-2-4-4--2-2-4-4--2-2-4-4--7-7-7-7-|
    A |-0-2-4-4--0-2-4-4--0-2-4-4--7-7-7-7-|
    E |------------------------------------|

    [Chorus]
    Here no evil ....
    e |-5-5--5-5--5-5--5-5--5-5------|
    B |-5-5--5-5--5-5--5-5--5-5------|
    F#|-x-x--x-x--x-x--x-x--x-x------|
    D |-4-4--4-4--4-4--4-4--4-4------| X 2
    A |-x-x--x-x--x-x--x-x--x-x------|
    E |-3-3--3-3--3-3--3-3--3-3------|

    [Bridge]
    e |---------------0--------------|
    B |--------0--------4-2-0--------|
    F#|---2-------3-2---------3-2-0--|
    D |-4---4------------------------| X 4
    A |------------------------------|
    E |------------------------------|

    [Verse]
    e |------------------------------------|
    B |------------------------------------|
    F#|---1-3-3----1-3-3----1-3-3--0-0-0-0-|
    D |-2-2-4-4--2-2-4-4--2-2-4-4--7-7-7-7-| X 2
    A |-0-2-4-4--0-2-4-4--0-2-4-4--7-7-7-7-|
    E |------------------------------------|

    e |----------------------------------------|
    B |----------------------------------------|
    F#|-----0-0------0-0------0-0--10-10-10-10-|
    D |-4-6-7-7--4-6-7-7--4-6-7-7--11-11-11-11-|
    A |-4-6-7-7--4-6-7-7--4-6-7-7--11-11-11-11-|
    E |----------------------------------------|

    e |------------------------------------|
    B |------------------------------------|
    F#|---1-3-3----1-3-3----1-3-3--0-0-0-0-|
    D |-2-2-4-4--2-2-4-4--2-2-4-4--7-7-7-7-|
    A |-0-2-4-4--0-2-4-4--0-2-4-4--7-7-7-7-|
    E |------------------------------------|

    [Chorus]
    Here no evil ....
    e |-5-5--5-5--5-5--5-5--5-5------|
    B |-5-5--5-5--5-5--5-5--5-5------|
    F#|-x-x--x-x--x-x--x-x--x-x------|
    D |-4-4--4-4--4-4--4-4--4-4------| X 2
    A |-x-x--x-x--x-x--x-x--x-x------|
    E |-3-3--3-3--3-3--3-3--3-3------|

    [Bridge]
    e |---------------0--------------|
    B |--------0--------4-2-0--------|
    F#|---2-------3-2---------3-2-0--|
    D |-4---4------------------------| X 4
    A |------------------------------|
    E |------------------------------|

    [Solo]
    e |-----------------------------------|------------------------------|
    B |-----------------------------------|-10p9-10-10-9----10p9-10-10~--|
    F#|-------10h12-10-12-10-12/14-10-12~-|--------------12--------------|
    D |--9h11-----------------------------|------------------------------|
    A |-----------------------------------|------------------------------|
    E |-----------------------------------|------------------------------|

    [Bridge]
    No evil in my blackness....
    e |-12~-10~-9~----------|-12~-10~-14~-16~-|-16-16b17-16-17b18-|
    B |------------12~-10~--|-----------------|-------------------|
    F#|---------------------|-----------------|-------------------|
    D |---------------------|-----------------|-------------------|
    A |---------------------|-----------------|-------------------|
    E |---------------------|-----------------|-------------------|

    e |---------------0--------------|
    B |--------0--------4-2-0--------|
    F#|---2-------3-2---------3-2-0--|
    D |-4---4------------------------| X 4
    A |------------------------------|
    E |------------------------------|

    [Solo]
    e |---------------------|-----------------------|
    B |-5p4-4h5-5p4-5/7-7/9-|-5p4-4h5-5p4-5/7-7/9---|
    F#|---------------------|-----------------------|
    D |---------------------|-----------------------|
    A |---------------------|-----------------------|
    E |---------------------|-----------------------|

    e |---------------0--------------|
    B |--------0--------4-2-0--------|
    F#|---2-------3-2---------3-2-0--|
    D |-4---4------------------------| X 1
    A |------------------------------|
    E |------------------------------|

    [Verse]
    e |------------------------------------|
    B |------------------------------------|
    F#|---1-3-3----1-3-3----1-3-3--0-0-0-0-|
    D |-2-2-4-4--2-2-4-4--2-2-4-4--7-7-7-7-| X 2
    A |-0-2-4-4--0-2-4-4--0-2-4-4--7-7-7-7-|
    E |------------------------------------|

    e |----------------------------------------|
    B |----------------------------------------|
    F#|-----0-0------0-0------0-0--10-10-10-10-|
    D |-4-6-7-7--4-6-7-7--4-6-7-7--11-11-11-11-|
    A |-4-6-7-7--4-6-7-7--4-6-7-7--11-11-11-11-|
    E |----------------------------------------|

    e |------------------------------------|
    B |------------------------------------|
    F#|---1-3-3----1-3-3----1-3-3--0-0-0-0-|
    D |-2-2-4-4--2-2-4-4--2-2-4-4--7-7-7-7-|
    A |-0-2-4-4--0-2-4-4--0-2-4-4--7-7-7-7-|
    E |------------------------------------|

    [Outro]
    (singing)
    e |---------------0--------------|
    B |--------0--------4-2-0--------|
    F#|---2-------3-2---------3-2-0--|
    D |-4---4------------------------| X 4
    A |------------------------------|
    E |------------------------------|

    (singing)
    e |---------------0--------------|
    B |--------0--------4-2-0--------|
    F#|---2-------3-2---------3-2-0--|
    D |-4---4------------------------| X 12
    A |------------------------------|
    E |------------------------------|

    ||

    e |--12b13~-12~-12b13~-12~-|12b13~-14b15-14-15b16-12~-|
    B |------------------------|--------------------------|
    F#|------------------------|--------------------------|
    D |------------------------|--------------------------| Play this during every 3th repetition riff above.
    A |------------------------|--------------------------|
    E |------------------------|--------------------------|

    e |---------------0--------------|
    B |--------0--------4-2-0--------|
    F#|---2-------3-2---------3-2-0--|
    D |-4---4------------------------| X 2
    A |------------------------------|
    E |------------------------------|

    e |--0--|
    B |--5--|
    F#|--5--|
    D |--7--| X 13
    A |-----|
    E |-----|

    e |--0--|
    B |--2--|
    F#|--2--|
    D |--4--|
    A |-----|
    E |-----|

    ***********************************
    | / Slide up
    | \ Slide down
    | h Hammer-on
    | p Pull-off
    | ~ Vibrato
    | x Dead note
    | b Bend
    ***********************************

    Posted 5 months ago #
  2. crossskip
    Member

    Perhaps its a better idea to just create a new general 'Motorpsycho Tab'-topic? =p

    Posted 5 months ago #
  3. Blashyrkh
    Member

    Yeah, that would be better indeed I'll think about it next time.
    @crosskip, got any suggestions for this tab:

    Posted 5 months ago #

RSS feed for this topic

Reply

You must log in to post.