Camp Motorpsycho » General

Guitar tab for Entropy

(2 posts)
  • Started 2 years ago by karmadrome
  • Latest reply from Blashyrkh
  1. karmadrome
    Member

    Hi folks, here's my first Motorpsycho tab, Entropy. And quite accurate as well!
    Enjoy!


    Motorpsycho - Entropy
    ---------------------

    Tuning low to high: EBDGAD

    If you need help with the fingerings, I suggest looking up some live footage of the song on youtube.

    (Intro)
    D|-0-----0-----0-----0---|-0-----0-----0-----0----|
    A|-0-----0-----0-----0---|-0-----0-----0-----0----|
    G|-7-----4-----7-----6---|-7-----4-----6-----6----|
    D|-7-----5-----7-----7---|-7-----5-----7-----7----|
    B|-5-----5-----5-----7---|-5-----5-----0-----0----|
    E|-x-----x-----x-----x---|-x-----x-----x-----x----|

    (Verse)
    D|-0-----0-----0-----0---|-0-----0--0--0-----0----|
    A|-0-----0-----0-----0---|-0-----0--0--0-----0----|
    G|-7-----4-----7-----6---|-7-----4--4--6-----6----|
    D|-7-----5-----7-----7---|-7-----5--5--7-----7----|
    B|-5-----5-----5-----7---|-5-----5--5--0-----0----|
    E|-0-----0-----0-----5---|-0-----0--3--x-----x----|

    (Chorus 1)
    D|-0---0--0--0---0---0---0--0--0---0-|
    A|-0---0--0--0---0---0---0--0--0---0-|
    G|-0---0--0--0---2---0---0--0--x---6-|
    D|-0---x--x--0---0---0---x--x--7---7-|
    B|-0---10-12-0---0---0---10-12-7---7-|
    E|-3---9--10-3-------3---9--10-7---5-|

    D|-0---0--0--0---0---0---0--0--0----0--|-0--|
    A|-0---0--0--0---0---0---0--0--0----0--|-0--|
    G|-0---0--0--0---2---0---0--0--0----0--|-11-|
    D|-0---x--x--0---0---0---x--x--x----x--|-12-|
    B|-0---10-12-0---0---0---10-12-15---13-|-12-|
    E|-3---9--10-3-------3---9--10-13---12-|-10-|

    (Bridge after first chorus)
    D|-0-------0-------0-------0--------|
    A|-0-------0-------0-------0--------|
    G|-7-------4-------7-------6--------|
    D|-7-------5-------7-------7--------|
    B|-5-------5-------5-------0--------|
    E|-0-------0-------0-------x--------|

    (Verse) 2x

    (Chorus 1) without last chord; instead directly into (Bridge 1):

    (Bridge 1)
    D|-0-------0-------0-------0-----|-0-------0-------0-------0-|
    A|-0-------0-------0-------0-----|-0-------0-------0-------0-|
    G|-0-------2-------0-------2-----|-0-------2-------0-------2-|
    D|-0-------0-------0-------0-----|-0-------0-------0-------0-|
    B|-0-------x-------0-------x-----|-0-------x-------0-------x-|
    E|-3-------2-------0-------2-----|-3-------2-------0-------2-|

    D|-------------------|
    A|-------------------|
    G|-------------------|
    D|-------------------| 3x
    B|-0-2-3-----3-2-0---|
    E|-----------------3-|

    (Solo Part Alternative 1)
    D|-0-------0-------|
    A|-0-------0-------|
    G|-7-------6-------|
    D|-7-------7-------|
    B|-5-------7-------|
    E|-0-------5-------|

    (Solo Part Alternative 2)
    D|-0---0---0-------|
    A|-0---0---0-------|
    G|-0---0---6-------|
    D|-7---7---7-------|
    B|-5---5---7-------|
    E|-0---3---5-------|

    Coose Alternative as desired. Then end Solo part on
    D|-0---|
    A|-0---|
    G|-6---|
    D|-7---|
    B|-0---|
    E|-x---|

    (Chorus 2)
    D|-0---0--0--0---0---0---0--0--0---0-|
    A|-0---0--0--0---0---0---0--0--0---0-|
    G|-0---0--0--0---2---0---0--0--x---6-| 9x then end with
    D|-0---x--x--0---0---0---x--x--7---7-|
    B|-0---10-12-0---0---0---10-12-7---7-|
    E|-3---9--10-3-------3---9--10-7---5-|

    D|-0----0--|-0--|
    A|-0----0--|-0--|
    G|-0----0--|-0--|
    D|-x----x--|-0--|
    B|-15---13-|-12-|
    E|-13---12-|-10-|

    Posted 2 years ago #
  2. Blashyrkh
    Member

    Looks indeed pretty accurate Thank you very much.

    Posted 9 months ago #

RSS feed for this topic

Reply

You must log in to post.