All is loneliness

By Fabio.

Motorpsycho   All is loneliness

       1st riff electric sitar
e-------------------------------------------------------------------
B---8-8-8--7--7-7---10-10-10--8--8-8--12-12-12-10--10-10\-13\-18----
G-------------------------------------------------------------------
D-------------------------------------------------------------------
A-------------------------------------------------------------------
E-------------------------------------------------------------------


  2nd riff electric sitar (at the end)        Verse
e------------------------------------------------------------------
B------------------7-----------------------------------------------
G--------------------7-9-----------0--0-0-0--0-0-0--0-0-0-0-0-0----
D------------7--9------------------9--9-9-9--9-9-9--9-9-9-9-9-9----
A----7----10-----------------------7--7-7-7--7-7-7--7-7-7-7-7-0----
E----------------------------------0--0-0-0--0-0-0--0-0-0-0-0-0----

   e-----------------------------------
   B-----------------------------------
   G-----------------------------------
   D-----------------------------------
   A---7--7-7-7--7-7-7--7-7-7-7-7-0----
   E---0--0-0-0--0-0-0--0-0-0-0-0-0----

All is loneliness before me
Loneliness divorce me
Loneliness before me 
Back To Guitar Page