Nothing To Say

in the key of C
tune down 1/2 step

--- INTRO ---

e|------------------------------------------------------------|
B|------------------------------------------------------------|
G|o--4--4-5--7--7-7/9--7-7--7--4-4-4-5--7--7-7/10-10-10-9--5--|
D|o-----------------------------------------------------------|
A|---2--2-3--5--5-5/7--9-5--5--2-2-2-3--5--5-5/-8--8--8-7--3--|
E|------------------------------------------------------------|

e|------------------------------------------------------------|
B|------------------------------------------------------------|
G|-4--4-5--7--7/12--12-7--5--4--4-5--4--3--3-3-3-3-3--3--3---o|
D|-----------------------------------------------------------o|
A|-2--2-3--5--5/10--10-5--3--2--2-3--2--1--1-1-1-1-1--1--1----|
E|------------------------------------------------------------|


--- VERSE: (pick w/ fingers) ---

e|---------------------------------------------------|
B|---------------------------------------------------|
G|o--10--10--9--7--7-7-7--10--10--9--7--5--5-5-5----o|
D|o-------------------------------------------------o|
A|----8---8--7--5--5-5-5---8---8--7--5--3--3-3-3-----|
E|---------------------------------------------------|

--- PRE-CHORUS (pick w/ fingers) ---

e|----------------------------------------|
B|----------------------------------------|
G|o--4--4--5--7--7----4--4--5--7--5------o|
D|o--------------------------------------o|
A|---2--2--3--5--5----2--2--3--5--3-------|
E|----------------------------------------|
                                  ^^ second time: strum hard

--- CHORUS (first part) ---

e|---3----9---8--10----3---5---8---12-10-------|
B|---------------------------------------------|
G|o-------------------------------------------o|
D|o--5----7--10--12----5---7--10--/14-12------o|
A|---------------------------------------------|
E|---------------------------------------------|

--- CHORUS = INTRO ---


-- corrections / additions to caspers@worldonline.nl ---
Other version, by Fabio
MOTORPSYCHO  'Nothing to say' 

Tune 1/2 down

   INTRO 
e|-------------------------|----------------------------|
B|-------------------------|----------------------------|
G|---4-4-4/5/7--9-9-9--7\5-|-0-/4-4--5--7--7-7/9-/7--5--|
D|---x-x-x-x-x--x-x-x--x-x-|-x-/x-x--x--x--x-x/x-/x--x--|
A|---2-2-2/3/5--7-7-7--5\3-|-0-/2-2--3--5--5-5/7-/5--3--|
E|-------------------------|----------------------------|

e|--------------0--0--0-------|-------------------------|
B|--------------0--0--0-------|-------------------------|
G|---4-4-4/5/7--12-12-12--9/7-|--4-4-4/5--4--3----------|
D|---x-x-x-x-x--x--x--x-------|--x-x-x/x--x--x----------|
A|---2-2-2/3/5--10-10-10--7-5-|--2-2-2/3--2--1----------|
E|----------------------------|-------------------------|

  
   VERSE
  
e|-------------------------3-----|------------------------3----|
B|---3/--6---5--3--5--3-----3---|--5/-6---5--3---------3------|
G|---------------------0-------0-|---------------5----5--------|
D|-------------------------------|---------------0-------------|
A|-------------------------------|-----------------------------|
E|-------------------------------|-----------------------------|


  Cause you got

    1st guitar 
e|-------------------------3-----|------------------------3----|
B|---------------------------3---|----------------------3------|
G|-----------------------------0-|--------------------5--------|
D|-------------------------------|-----------------------------|
A|-------------------------------|-----------------------------|
E|-------------------------------|-----------------------------|
                                                               | 
    2nd guitar                       
e|-------------------------------|-----------------------------|
B|---------------------3---------|-----------------------------|
G|---------------------0---------|---------------5-------------|
D|-------------------------------|---------------0-------------|
A|-------------------------------|-----------------------------|
E|-------------------------------|-----------------------------|
  
    Nothin to say
    1st guitar
e|-----------------------------3-|-----------------------------|
B|---------------------------3---|---0-0-0-0-0-0-0-0-----------|
G|-------------------------0-----|---0-0-0-0-0-0-0-0-----------|
D|-------------------------------|---0-0-0-0-0-0-0-0-----------|
A|-------------------------------|---0-0-0-0-0-0-0-0-----------|
E|-------------------------------|---0-0-0-0-0-0-0-0-----------                                                         
        2nd guitar
e|-------------------------------|-----------------------------|
B|-------------------------------|-----------------------------|
G|---------------------3---------|-----------------------------|
D|---------------------0---------|---5-5-5-5-5-5-5-5-----------|
A|-------------------------------|---x-x-x-x-x-x-x-x-----------|
E|-------------------------------|---3-3-3-3-3-3-3-3-----------|


 |___CHORUS__________________3_times___________________________|

  Nothing to say
e|-------------------------------|---0-0-0-0-0-0-0-0-----------|
B|-------------------------------|---0-0-0-0-0-0-0-0-----------|
G|---------4----5----7-----------|---7-7-7-7-7-7-7-7-----------|
D|----5----x----x----x-----------|---x-x-x-x-x-x-x-x-----------|
A|----x----2----3----5-----------|---5-5-5-5-5-5-5-5-----------|
E|----3--------------------------|-----------------------------|



  To meeee..
 
 |___1_time______________________|    1st solo (A) 3 times    

e|----0-0-0-0-0-0-0--------------|---------------------------------------------|
B|----0-0-0-0-0-0-0--------------|---------------------------------------------|
G|----0-0-0-0-0-0-0--3-----------|--------------------11---9-------------------|
D|----5-5-5-5-5-5-5--x-----------|---11----11-9-11-12-------12-11-12-11-7/-9---|
A|----x-x-x-x-x-x-x--1-----------|---------------------------------------------|
E|----3-3-3-3-3-3-3--------------|---------------------------------------------|


  (B) 1 time                  (C) 4 times

e|-----------------------------------------------|-------------------------12-12-------|
B|-----------------------------------------------|---13-12---------------12-----12-----|
G|-----------------------------------------------|--------10-12-------12----------12---|
D|---11---11-9-11-12-----------------------------|------------------12-----------------|
A|-------------------15--17-15-14-15-14-10/12----|-------------------------------------|
E|-----------------------------------------------|-------------------------------------|

     2nd solo (C) 4 times        (D) 8 times 
e|-------------------------12-12-------|-------------------------------------------------------|
B|---13-12---------------12-----12-----|-------------------------------------------------------|
G|--------10-12-------12----------12---|---14---11-11--14-11-11---14-14\--11-11-12----14-------|
D|------------------12-----------------|-------------------------------------------------------|
A|-------------------------------------|-------------------------------------------------------|
E|-------------------------------------|-------------------------------------------------------|

Back to tabulature page ...