A Shrug and A Fistful


Don't fuck me riff:
-------------------------------------
-------------------------------------
-------5--6-----8--------------------
-4--6--5--6-----8--------------------
-4--6--3--4-----6--------------------
-2--4--------------------------------

chorus-riff: 
-------------------------------------
-------------------------------------
----5--6--5--6--------6--------------
-6--5--6--5--6--4--3--6--------------
-6--3--4--3--4--4--3--4--------------
-4--------------2--1-----------------

middlechords:
---------------
---------------
---------------
-4--6----------
-4--6----------
-2--4----------

Other version, by Fabio
Motorpsycho   A shrug and a fistful

Standard tuning


      Don't fuck me
|----------------------------|------------------------------------|
|----------------------------|------------------------------------|
|-----7--7--7-----6.---------|---9--9--9---9/11----9--9-----------|
|-----7--7--7-----6.----7----|---9--9--9---9/11----9--9-----------|
|-----5--5--5-----4.----7----|---7--7--7---7/9-----7--7-----------|
|-----------------------5----|------------------------------------|

      Erhhhh
|----------------------------|------------------------------------|
|----------------------------|------------------------------------|
|-----9-9-9-9-9-9-9-9--------|------------------------------------|
|-----9-9-9-9-9-9-9-9--------|----5-5-5-5--4-2---------2----------|
|-----7-7-7-7-7-7-7-7--------|-----------------5-4---5---4--------|
|----------------------------|------------------------------------|

      5th or 7th
|-----x-x-x-x-x--------------|
|-----x-x-x-x-x--------------|
|-----x-x-x-x-x--------------|
|-----x-x-x-x-x--------------|
|-----x-x-x-x-x--------------|
|-----x-x-x-x-x--------------|


      The only,only
|----------------------------|------------------------------------|
|----------------------------|------------------------------------|
|-----------6-7.--6--7------|---------6-7----7-------------------|
|-----7--7--6-7.--6--7------|----7-7--6-7----7-------------------|
|-----7--7--4-5.--4--5------|----7-7--4-5----5-------------------|
|-----5--5-------------------|----5-5-----------------------------|

   
   A shrug ...
   (Harmonic)
|----------------------------|------------------------------------|
|----------------------------|------------------------------------|
|----------------------------|------------------------------------|
|---7-7-7-7-7-7-7-7----------|---5-5-5--7-7-7-7-7-----------------|
|----------------------------|------------------------------------|
|----------------------------|------------------------------------|



    Senseless...

|-----------------17--------------------|2nd guitar
|--------------------17--15-------------|2nd guitar
|---------------------------------------|
|---75^7-5^7-5^7-5^7-5^7-5^7-5^7-------|
|---------------------------------------|
|---------------------------------------|

Grindstone

about that bass line.. took me 20 minutes or so to get it right!!!

GRINDSTONE (tune 1 step down)
|-----------------------|
|o---------------------o|
|o--3----------3-4-6---o|
|-----3-4-0-1-----------|

paul c
Back to tabulature page ...