THE WITCH

 

Taken from Mezzago 99

Standard Tuning (it would be nice with capo on 3rd fret)

 

 

 

 

Intro and Verse In the verse here some penatonic improvisation

 

e|------------------------------------|-----------------------------|

B|------------------------------------|-----------------------------|

G|-------------------12--10-10-10-----|-----------------------------|

D|--12--12--12----12-12--10-11-12-----|-----------------------------|

A|--12--12--12----12-10--10-10-10-----|-----------------------------|

E|--10--10--10----10------------------|-----------------------------|

 

 

Chorus

Baby cantís you see the witch, canít you see the witch, canít you see the witch , by my side

|_________________________________2 Times___________________________________|

 

|-----------D------------------------|------------G------------------------|---------G-----|-------D-----------|

 

e|--10-10-10-10-10-10-10-10/10-10-10-10-10-10-10-10-10/10--...--10/10--...10----|

B|--10-10-10-10-10-10-10-10/10-10-10-10-10-10-10-10-10/10--...--10/10--...10----|

G|--10-10-10-10-10-10-10-10/12-12-12-12-12-12-12-10-10/12--...--10/10--...10----|

D|--12-12-12-12-12-12-12-10/12-12-12-12-12-12-12-10-10/12--...--10/12--...12----|

A|--12-12-12-12-12-12-12-10/10-10-10-10-10-10-10-10-10/10--...--10/12--...12----|

E|--10-10-10-10-10-10-10-10/10-10-10-10-10-10-10-10-10/10--...--10/10--...12----|

 

Chorus end

e|-------------------------------------------|

B|-------------------------------------------|

G|-------------------------------------------|

D|--12-12-12-12-12-------12-and little noise-|

A|--12-12-12-12-12----10---------------------|

E|--10-10-10-10-10---------------------------|

 

e|-------------------------------------------------(0)-------|

B|-------------------------------------------------(0)-------|

G|-------------------------------------------------(0)-------|

D|--------------------------------------------------12-------|

A|--------------------------------------------------11-------|

E|--10-11-10-8-10-11-10-8-10-11-10-8-10-11-10-8-10--10-------|

 

 

After the end of 2nd chorus instead to start the verse

e|--------------------------------|

B|--------------------------------|

G|--------------------------------|

D|--12--12--12--12-------10^12----|

A|--12--12--12--12ó10^11----------|

E|--10--10--10--10----------------|

 

Then jammingÖ

 

 

All addiction or correction are welcome!

 

Fabio

 

 

 

 

 

Back to tabulature page ...