Camp Motorpsycho » General

The Ocean In Her Eye guitar tab

(4 posts)
  • Started 11 months ago by Blashyrkh
  • Latest reply from Blashyrkh

Tags:

No tags yet.

  1. Blashyrkh
    Member

    I've tried to write it in standard tuning.

    Suggestions or the song in original tuning.are always welcome.

    Have fun!


    [intro]
    e|------17--|
    B|--15------|
    G|----------|
    D|----------| X 24 (simulate Xylophone here)
    A|----------|
    E|----------|

    e|---------|
    B|---------|
    G|--6---7--|
    D|--4---5--| X 4
    A|--5---5--|
    E|---------|

    [Verse]
    Sometimes- wake up in the past
    e|---------|
    B|---------|
    G|--6---7--|
    D|--4---5--| X 2
    A|--5---5--|
    E|---------|

    Bm A# F
    Mary,mary so con---tra---ry

    Daydreams - forget all too fast
    e|---------|
    B|---------|
    G|--6---7--|
    D|--4---5--| X 2
    A|--5---5--|
    E|---------|

    Bm A# F
    Picking minds when it gets sca---ry

    [Verse]
    F A# F A# F
    It's too qui--et to be lis-tening

    F A# C F G G
    Turn a face to the sky

    F A# F F A# F
    There's a life--line somewhere out there

    F A# F D
    With an ocean in her eye

    [intstrumental]
    e|---------|
    B|---------|
    G|--6---7--|
    D|--4---5--| X 4
    A|--5---5--|
    E|---------|

    [verse]
    Slowly as lifetimes unfold
    e|---------|
    B|---------|
    G|--6---7--|
    D|--4---5--| X 2
    A|--5---5--|
    E|---------|

    Bm A# F
    Unobtrusivly it's sha--king

    Watching kids lose their souls
    e|---------|
    B|---------|
    G|--6---7--|
    D|--4---5--| X 2
    A|--5---5--|
    E|---------|

    Bm A# F
    It's all there for the ta--king

    [verse]
    F A# F F A# F
    But it's too qui--et to be list-ening

    F A# F F G
    Turn your head face the sky

    F A# F F A# F
    And the life--line somewhere out there

    F A# F D
    With that ocean in her eye

    [intstrumental]
    e|--------------------------------------------|
    B|--2h3--3/5----------2--2--2\1h2--2-2-2-2-3--|
    G|------------1--------------------2-2-2-2-2--|
    D|----------------4---------------------------| x2
    A|--------------------------------------------|
    E|--------------------------------------------|

    e|-------------|--------------|
    B|----------0--|--------------|
    G|--5--5/7--9--|--5--5--7--9--|
    D|--3--3/5--7--|--3--3--5--7--| x4
    A|--0----------|--0-----------|
    E|-------------|--------------|

    e|-----------|------------------------|
    B|--2h3/10~--|--2h3-10-10--8~--10--7--|
    G|--2--------|--2---------------------|
    D|-----------|------------------------| x4
    A|-----------|------------------------|
    E|-----------|------------------------|

    [outro]

    D
    Go find that lifeline out there
    D A# C D
    With that ocean in her e----ye

    e|------17--|
    B|--15------|
    G|----------|
    D|----------| x12 (simulate Xylophone here)
    A|----------|
    E|----------|

    e|---------|
    B|---------|
    G|-(0)-----|
    D|--4---5--| x4
    A|--5---3--|
    E|---------|

    e|---------------------|--------------------|
    B|---------------------|--------------------|
    G|-(0)-----------------|-(0)----------------|
    D|--4---5---5/7--5--4--|--4---5---5/7\5--4--|
    A|--5---3--------------|--5---3-------------|
    E|---------------------|--------------------|

    e|---------------------|---------------------|
    B|---------------------|---------------------|
    G|-(0)-----------------|-(0)-----------------|
    D|--4---5---5/9--5--4--|--4---5---7h9-7h9-4--|
    A|--5---3--------------|--5---3--------------|
    E|---------------------|---------------------|

    e|------17--|
    B|--15------|
    G|----------|
    D|----------| x24 (simulate Xylophone here)
    A|----------|
    E|----------|

    ************************************

    | h Hammer-on
    | p Pull-off
    | / Slide-up
    | \ Slide-down
    | ~ Vibrato
    | () Ghost note

    ************************************

    Posted 11 months ago #
  2. Blashyrkh
    Member

    I rewrote the song because it's not in standard tuning.
    It's originally played in Open D7 tuning: d-A-C-F#-A-D


    ************************************

    This song is played in Open D7 tuning: d-A-C-F#-A-D
    The chords are played like this:

    Bm A# F C G D
    D |------------------------------------------------|
    A |--2------5---------------7--------2---------0---|
    F#|--0------4-------6-------6--------1---------3---|
    c |--2------5-------5-------7--------2---------2---|
    A |--2------5-------0-------7--------2---------0---|
    d |------------------------------------------------|

    ************************************

    [intro]
    D |------19--|
    A |--17------|
    F#|----------|
    c |----------| X 24 (simulate Xylophone here) - Guitar 1
    A |----------|
    d |----------|

    D |-------------11-|
    A |-----12--14-----|
    F#|--12------------| X 8 (play this quietly simultaneously
    c |----------------| with the last 8 repeats from above) - Guitar 2
    A |----------------|
    d |----------------|

    D |---------|
    A |---------|
    F#|--7---8--|
    c |--6---7--| X 4
    A |--5---5--|
    d |---------|

    [Verse]
    Sometimes- wake up in the past
    D |---------|
    A |---------|
    F#|--7---8--|
    c |--6---7--| X 2
    A |--5---5--|
    d |---------|

    Bm A# F
    Mary,mary so con---tra---ry

    Daydreams - forget all too fast
    D |---------|
    A |---------|
    F#|--7---8--|
    c |--6---7--| X 2
    A |--5---5--|
    d |---------|

    Bm A# F
    Picking minds when it gets sca---ry

    [Verse]
    F A# F A# F
    It's too qui--et to be lis-tening

    F A# C F G G
    Turn a face to the sky

    F A# F F A# F
    There's a life--line somewhere out there

    F A# F D
    With an ocean in her eye

    [intstrumental]
    D |---------|
    A |---------|
    F#|--7---8--|
    c |--6---7--| X 4
    A |--5---5--|
    d |---------|

    [verse]
    Slowly as lifetimes unfold
    D |---------|
    A |---------|
    F#|--7---8--|
    c |--6---7--| X 2
    A |--5---5--|
    d |---------|

    Bm A# F
    Unobtrusivly it's sha--king

    Watching kids lose their souls
    D |---------|
    A |---------|
    F#|--7---8--|
    c |--6---7--| X 2
    A |--5---5--|
    d |---------|

    Bm A# F
    It's all there for the ta--king

    [verse]
    F A# F F A# F
    But it's too qui--et to be list-ening

    F A# F F G
    Turn your head face the sky

    F A# F F A# F
    And the life--line somewhere out there

    F A# F D
    With that ocean in her eye

    [intstrumental]
    D |------------------------------------------|
    A |------------------------------------------|
    F#|--7h8-8/10-------7--7--7\5h7--7-7-7-7-8---|
    c |--0---------8-----------------7-7-7-7-7---| x3
    A |--7-----------9---------------------------|
    d |------------------------------------------|

    D |---------------|-------------|
    A |---------------|-------------|
    F#|--6--6-8-8/10--|--6--6-8--10-|
    c |--7--7-7-7/9---|--7--7-7--9--| x4
    A |--7--7-8-8-----|--7--7-8--9--|
    d |---------------|-------------|

    D |-----------|------------------------|
    A |------/12~-|------12-12-10~-12------|
    F#|-7h8-------|-7h8----------------12--| x4
    c |-6---------|-6----------------------|
    A |-----------|------------------------|
    d |-----------|------------------------|

    [outro]

    D
    Go find that lifeline out there
    D A# C D
    With that ocean in her e----ye

    D |------19--|
    A |--17------|
    F#|----------|
    c |----------| x12 (simulate Xylophone here) - Guitar 1
    A |----------|
    d |----------|

    D |-------------11-|
    A |-----12--14-----|
    F#|--12------------| X 12 (play this quietly simultaneously) - Guitar 2
    c |----------------|
    A |----------------|
    d |----------------|

    D |---------|
    A |---------|
    F#|-(0)-----|
    c |--6---7--| x4
    A |--5---5--|
    d |---------|

    D |---------------------|--------------------|
    A |---------------------|--------------------|
    F#|-(0)-----------------|-(0)----------------|
    c |--6---7---7/9--7--6--|--6---7---7/9\7--6--|
    A |--5---5--------------|--5---6-------------|
    d |---------------------|--------------------|

    D |-----------------------|-----------------------|
    A |-----------------------|-----------------------|
    F#|-(0)-------------------|-(0)-------------------|
    c |--6---7---7/11\7--6----|--6---7---9h11-9h11-6--|
    A |--5---5----------------|--5---5----------------|
    d |-----------------------|-----------------------|

    D |------19--|
    A |--17------|
    F#|----------|
    c |----------| x24 (simulate Xylophone here)
    A |----------|
    d |----------|

    ************************************

    | h Hammer-on
    | p Pull-off
    | / Slide-up
    | \ Slide-down
    | ~ Vibrato
    | () Ghost note

    ************************************

    Posted 10 months ago #
  3. mybestfriend83
    Member

    Good job Dude... Keep on tabbin..,

    Posted 10 months ago #
  4. Blashyrkh
    Member

    @mybestfriend83, thank you! much appreciated. The tab is now on Ultimate-Guitar.

    Posted 10 months ago #

RSS feed for this topic

Reply

You must log in to post.