Camp Motorpsycho » General

The Nerve Tattoo

(10 posts)
  • Started 9 months ago by Blashyrkh
  • Latest reply from Blashyrkh

Tags:

No tags yet.

  1. Blashyrkh
    Member

    Guitar players on this forum, can you help me a bit out with the Nerve Tattoo or correct me were I'm wrong.
    I'm trying to write down this great song.

    I've already tried to write down the first few notes of the intro in standard E


    e|------------------------------------------------------|-----------------|
    B|------------------------------------------------------|-----------------|
    G|------------------------------------------------------|-----------------|
    D|-----9-----9-----9-----9------7------7------7------7--|--6~---6-6---6~--|
    A|------------------------------------------------------|-----------------|
    E|--7-----7-----7-----7------5-----5------5------5------|--7~---7-7---7~--|

    Not sure if it's already correctly.

    https://www.youtube.com/watch?v=ANYz3EEU1N0

    Many thanks!

    Posted 9 months ago #
  2. Krist Rampage
    Member

    According to the lyrics page the tuning is:

    (L to H): A E A C# E A

    Posted 9 months ago #
  3. Blashyrkh
    Member

    Thanks.

    With that Tuning in mind:


    Tuning: AEAC#EA
    this tuning can be achieved by a EBEG#BE tuning w/ capo on 5

    The frets are relative to the capo position.

    A |------------------------------------|-----------------------|
    E |------------------------------------|-----------------------|
    C#|----3---3---3---3-----1---1---1---1-|-0~--0-0-0~------------|
    A |------------------------------------|-0~--0-0-0~------------|
    E |--5---5---5---5----3---3---3---3----|-----------------------|
    A |------------------------------------|-----------------------|

    A |----------------------------------------------|
    E |-/9--9-9~--/9--9-9~--10--9---0-0--0-----------|
    C#|-/8--8-8~--/7--7-7~--7---7---7-8--10----------|
    A |----------------------------------------------|
    E |----------------------------------------------|
    A |----------------------------------------------|

    Posted 9 months ago #
  4. Blashyrkh
    Member

    This song is tabbed by the official UG team: https://tabs.ultimate-guitar.com/tab/motorpsycho/the_nerve_tattoo_official_2342101
    Though it's in standard E.

    Posted 9 months ago #
  5. crossskip
    Member

    "Officially tabbed" using the wrong tuning and without a capo

    I've given this one a few tries, I will look up what bits I've scrambled together so far! Though I got confused on the use of the capo, since Snah doesn't use one in this live video

    Posted 9 months ago #
  6. Blashyrkh
    Member

    @crossskip: yeah I know :p "Officially tabbed" means on Ultimate Guitar that the song is tabbed by the Official Ultimate Guitar team. I pro users on UG request on song - the song is tabbed by the UG team.

    I don't see your video here, I just see an empty space.

    Posted 9 months ago #
  7. crossskip
    Member

    Here's the url: https://www.youtube.com/watch?v=4WtM6m2tHi8

    edit: ok this also doesn't work =p

    and this then!: /watch?v=4WtM6m2tHi8

    Posted 9 months ago #
  8. Blashyrkh
    Member

    Indeed, I've also never seen Snah play this song with a capo.

    I've also requested Landslide on UG - Curious what the Official UG team will make of it :p

    Posted 9 months ago #
  9. crossskip
    Member

    Indeed, I've also never seen Snah play this song with a capo.

    I've also requested Landslide on UG - Curious what the Official UG team will make of it :p

    Well it says 'capo on fifth freth' on the Blissard-Box poster-thingy and it sounds quite good with one for most parts, but it's still a bit weird for others =p

    Posted 9 months ago #
  10. Blashyrkh
    Member

    Also in this video no capo - on https://www.youtube.com/watch?v=dFAs3_dH5vg

    Posted 9 months ago #

RSS feed for this topic

Reply

You must log in to post.