Camp Motorpsycho » General

Triggerman - guitar

(7 posts)
  • Started 1 month ago by Blashyrkh
  • Latest reply from Blashyrkh

Tags:

No tags yet.

  1. Blashyrkh
    Member

    Is someone in the write out triggerman?
    https://www.ultimate-guitar.com/forum/showthread.php?t=1858644

    Posted 1 month ago #
  2. crossskip
    Member

    Is it in standard? I might give it a go then!

    Maybe I'll finish The Nerve Tattoo as well someday! Anyone who knows if that one's played with or without a capo? =p

    Posted 1 month ago #
  3. Blashyrkh
    Member

    @crossskip, I've seen different versions of The Nerve Tattoo. Sometimes with a capo, sometimes not...
    Based on the guitar that Snah uses, Triggerman seems to be in standard E.

    Posted 1 month ago #
  4. supernaut
    Member

    Nerve tattoo tuning: https://motorpsycho.fix.no/musicbox/lyrics/lyrics/blissard.htm

    no mentioning of a capo.

    Posted 1 month ago #
  5. crossskip
    Member

    no mentioning of a capo.

    I know, but the Blissard 4CD box poster thingy does tho! It works out pretty ok as well with a capo at the 5th fret.

    I can only find videos where he plays it without one, but he tends to skips a lot of the higher notes during those performances. But that ofcourse may also be because of the 1 guitar restriction compared to the recording! =p

    Posted 1 month ago #
  6. Blashyrkh
    Member

    This already sounds like that main guitar lick


    e|------------------------------------------------------|
    B|----------------------------------------12p10---------|
    G|------------9--11~------11--9~------11--------11------|
    D|-9--11--12---------12~---------11---------------------|
    A|------------------------------------------------------|
    E|------------------------------------------------------|

    Posted 1 month ago #
  7. Blashyrkh
    Member

    Also the begin part of Bartok of the Universe:


    e|-----------------------------------------------------------| x 3
    B|-----------------------------------------------------------|
    G|-------------7---/9--7/9--6--7--9-9--11--6--7--9-9--14--13-|
    D|-----------------------------------------------------------|
    A|-------------5---/7--5/7--4--5--7-7--9---4--5--7-7--12--11-|
    E|--0---3-2-5------------------------------------------------|

    Don't know the exact tuning. It's probably tuned down a bit

    Posted 1 month ago #

RSS feed for this topic

Reply

You must log in to post.