Camp Motorpsycho » General

On My Pillow - Conne Island

(1 post)
  • Started 3 weeks ago by Blashyrkh

Tags:

No tags yet.

  1. Blashyrkh
    Member

    I've did an attempt to write down the chords of On My Pillow (acoustic version) played in Leipzig this tour.
    https://www.youtube.com/watch?v=O5WsJJmbizA

    Snah actually plays it with a capo on the 2nd fret, but I've transposed it to play without capo.
    It sound pretty okay to me.


    [Intro]
    C A#
    C F A#

    [Verse 1]
    C F
    Turn the lights out, and draw the curtain
    A#
    Dive into my pillow sleeping
    C
    Won't hear the phone ring
    F A#
    Distress is the one thing I can't stand

    [Chorus]
    C A#
    Tell my friends i'm on vacation

    F D#
    And say that I'm OK (x2)
    |-----------------3-3---------|
    |-----------------3-3--1------|
    |----------------------2------|
    |----7---8--7-----5-5--3------|
    |-/8---8----------6-6---------|
    |-----------------------------|

    F C
    Just wanna sleep all day
    |-----------------------------|
    |-1-1-1--1--1---------1-------|
    |-2-2-2--3--2-----------------|
    |-3-3-3--3--3---------2-------|
    |---------------------3-------|
    |-----------------------------|

    [Pre verse]
    C A#

    [Verse 2]
    C
    I'm within-I'm in orbit
    A#
    Sweet regression cruise contol
    C
    Diving deep in shallow water,
    A#
    I'm home again

    [Chorus]
    C A# D#
    Tell my friends it feels like dying

    F D#
    And say that I'm OK (x2)
    |-----------------3-3---------|
    |-----------------3-3--1------|
    |----------------------2------|
    |----7---8--7-----5-5--3------|
    |-/8---8----------6-6---------|
    |-----------------------------|

    F C
    Just wanna sleep all day
    |-----------------------------|
    |-1-1-1--1--1---------1-------|
    |-2-2-2--3--2-----------------|
    |-3-3-3--3--3---------2-------|
    |---------------------3-------|
    |-----------------------------|

    [Bridge]
    C D# C D#

    C Gm A#

    C Gm A#

    C Dm D#maj7 F

    C D# C D#

    F

    [Verse 3]
    C
    The wolves are howling
    F
    I'm out walking
    A#
    I ain't going back again
    C
    If you find me,
    C A#
    Please remind me of who I am

    [Chorus]
    C A# D#
    Tell my friends it feels like dying
    F D#
    And say that I'm OK (x3)
    |-----------------3-3---------|
    |-----------------3-3--1------|
    |----------------------2------|
    |----7---8--7-----5-5--3------|
    |-/8---8----------6-6---------|
    |-----------------------------|

    F C
    Just wanna sleep all day
    |-----------------------------|
    |-1-1-1--1--1---------1-------|
    |-2-2-2--3--2-----------------|
    |-3-3-3--3--3---------2-------|
    |---------------------3-------|
    |-----------------------------|

    [Outro]
    C D#maj7

    Posted 3 weeks ago #

RSS feed for this topic

Reply

You must log in to post.