Camp Motorpsycho » General

On My Pillow guitar

(4 posts)
  • Started 9 months ago by Blashyrkh
  • Latest reply from toresan

Tags:

  1. Blashyrkh
    Member

    Hi !

    I'm trying to figure out how to play On My Pillow. I saw that Snah sometimes play it with a capo and sometimes not...
    It feels like that the Ultimate Guitar version is not correct: https://tabs.ultimate-guitar.com/tab/motorpsycho/on-my-pillow-chords-2871101

    Can someone help me out with the chords?

    Thanks!

    Posted 9 months ago #
  2. Blashyrkh
    Member

    Anyone?

    Posted 7 months ago #
  3. Blashyrkh
    Member

    Bump this post

    This is the version I'm looking for:
    https://www.youtube.com/watch?v=O5WsJJmbizA

    It seems to start with this

    Capo on 3th fret

    E|--------------|
    B|--2-----------|
    G|--0-----------|
    D|--2-----------|
    A|--------------|
    e|--------------|

    Keep safe !

    Posted 2 weeks ago #
  4. toresan
    Member

    You've got the beginning down, so now draw the rest of the fucking owl!

    Seems like the UG-tab is over-simplified to the extent it doesn't quite fit the melody anymore. I tried to look and listen at what Snah does and this seems to be the chords he are playing, more or less, with possibly some details missing:

    E|-----------------------------------------------------------------
    B|--2--3--3-------2--2--5-----7-8-7-3-5-1-------1-2-5-1-2-5-1-2-5-5
    G|--0--0--0-------0--0--5-----7-7-7-5-5-0-------0-0-0-0-0-0-0-0-0-5
    D|--2--4--4-------2--0--5-----7-7-7-5-5-2-------1-2-5-1-2-5-1-2-5-5
    A|--0--0--5-------0--2--3-----5-5-5-3-3-3-------0-0-0-0-0-0-0-0-0-3
    e|-----------------------------------------------------------------

    The timing and order of chords is left as an assignment for the reader.

    Posted 1 week ago #

RSS feed for this topic

Reply

You must log in to post.