Camp Motorpsycho » General

Starmelt/Lovelight guitar tab

(7 posts)
  • Started 1 year ago by karmadrome
  • Latest reply from karmadrome
  1. karmadrome
    Member

    Hey folks,

    I've made another tab - Starmelt/Lovelight - inspired by an acoustic live recording from youtube.

    Enjoy!

    Cheers,

    Bjoern

    Motorpsycho - Starmelt/Lovelight (acoustic version)
    ---------------------------------------------------------------

    Tabbed by Bjoern Ahrens (nma-tabs@gmx.de).
    Comments and/or suggestions welcome!

    Based on the acoustic version from the 2014 tour.

    Standard Tuning.

    Chord/Riff list:
    ----------------

    [Intro] 2x
    E7sus4: 0-2-0-2-0-0
    E?: 0-7-0-7-0-0
    A?: x-0-7-6-0-0
    Bsus4: 7-9-9-9-0-0
    C#?: 9-x-9-9-0-0
    D?: 10-x-0-9-10-0

    [Verse 1] 2x
    E5: 0-2-2-x-x-x
    G#?: 4-7-6-x-x-x
    A5: 5-7-7-x-x-x
    B5: 7-9-9-x-x-x
    C#5: 9-11-11-x-x-x
    D?: 10-x-0-9-10-0

    [Bridge] ("And I know why..")
    Bsus: x-2-4-4-0-0
    C#sus: x-4-6-6-0-0
    Bsus?: 7-x-9-9-7-0
    B: 7-x-9-8-7-0

    [Chorus] 2x
    E: 0-2-2-1-0-0
    Bsus: x-2-4-4-0-0 (or 7-9-9-9-0-0)
    Asus: x-0-2-2-0-0 (or x-0-7-6-0-0)
    F#? 2-x-2-2-0-0
    E/G# 4-x-2-1-0-0
    Asus: x-0-2-2-0-0 (or x-0-7-6-0-0)

    [End of Chorus]
    x-0-9-9-0-0
    7-x-9-9-0-0
    9-x-9-9-0-0
    x-7-9-9-0-0

    [Verse 2] 1x
    B5: 7-9-9-x-x-x
    C#5: 9-11-11-x-x-x
    D?: 10-x-0-9-10-0
    E5: 0-2-2-x-x-x
    G#?: 4-7-6-x-x-x
    A5: 5-7-7-x-x-x
    B5: 7-9-9-x-x-x
    C#5: 9-11-11-x-x-x
    D?: 10-x-0-9-10-0

    [Bridge]
    [Chorus] 2x

    [Intro] 2x

    [End] ("Starmelt, Lovelight..")
    x-9-x-9-10-0
    x-11-x-9-10-0
    x-x-7-9-10-0
    x-x-9-8-10-0
    x-x-11-9-10-0
    x-x-13-11-12-0
    0-2-2-1-0-0 (i prefer 0-7-9-9-0-0 though)

    ----

    The main riff for the chorus is

    e|------------------------------------
    B|---9-10-9---9-10-9---9-10-11-10-9---
    G|------------------------------------
    A|---6-7--6---6-7--6---6-7--9--7--6---
    D|-7--------7--------7--------------7-
    E|------------------------------------

    Posted 1 year ago #
  2. karmadrome
    Member

    No guitarists out there who might find this useful?

    Posted 1 year ago #
  3. crossskip
    Member

    Might give it a try. Doesn't look that different from the studioversion, but it has some fancy chords! I'm working on Here Be Monsters at the moment, so if someone is interested I can post the chords of the first part =p

    Posted 1 year ago #
  4. Blashyrkh
    Member

    Thanks man! I'll give it a try this evening

    @crossskip, could you share the chords of HBM? thanks!

    Posted 1 year ago #
  5. supernaut
    Member

    I don't know if it's more accurate but if you play the Starmelt intro like this:

    [Intro] 2x
    E7sus4: 0-2-0-2-0-0
    E?: 0-7-0-7-0-0
    A?: x-0-7-6-0-0
    Bsus4: x-2-0-4-0-0
    C#?: x-4-0-4-0-0
    D?: x-5-4-4-5-0

    you get a nice twangy sound. Got this from the web once, not done by me.

    Please do post HBM!!!

    Posted 1 year ago #
  6. crossskip
    Member

    What I got so far:

    4:56

    e|---------12-(10)-----------------10-------
    B|-10--------------------8------------------
    G|-9----9----------------7-----7------------
    D|-7---------------------9------------------
    A|------------------------------------------
    E|------------------------------------------

    5:22

    e|-----------------------------
    B|---6-------------------------
    G|---7--------7---------4------
    D|---7--------7---------5------
    A|------------7---------5------
    E|-----------------------------

    Not sure yet about these, but they sound kinda ok.

    Verse chords:

    e|--2-----0---2-----0---------------
    B|--0---------------2-----2---3-----
    G|--2---------------2---------------
    D|--2---------------2---------------
    A|--0---------------0---------------
    E|----------------------------------

    edit: right, what were those Tab BBcodes again? =p
    edit2: got it

    Posted 1 year ago #
  7. karmadrome
    Member

    Nice variation, Supernaut!

    However, the intro chords are pretty much the way Snah plays it - I got those from some live footage on YouTube..

    Posted 1 year ago #

RSS feed for this topic

Reply

You must log in to post.